ISO-10303-21;
HEADER;
/* Generated by software containing ST-Developer
 * from STEP Tools, Inc. (www.steptools.com) 
 */

FILE_DESCRIPTION(
/* description */ (''),
/* implementation_level */ '2;1');

FILE_NAME(
/* name */ 
'C:\\Users\\Richard\\Desktop\\export\\#Motedis\\Lconn plates\\L-CONN 1
TO1 [88 88 3] 30 H5 D6-5.stp',
/* time_stamp */ '2016-10-06T11:16:52+02:00',
/* author */ ('Richard'),
/* organization */ (''),
/* preprocessor_version */ 'ST-DEVELOPER v16.1',
/* originating_system */ 'Autodesk Inventor 2016',
/* authorisation */ '');

FILE_SCHEMA (('AUTOMOTIVE_DESIGN { 1 0 10303 214 3 1 1 }'));
ENDSEC;

DATA;
#10=MECHANICAL_DESIGN_GEOMETRIC_PRESENTATION_REPRESENTATION('',(#13),#549);
#11=SHAPE_REPRESENTATION_RELATIONSHIP('SRR','None',#558,#12);
#12=ADVANCED_BREP_SHAPE_REPRESENTATION('',(#14),#548);
#13=STYLED_ITEM('',(#567),#14);
#14=MANIFOLD_SOLID_BREP('Solid1',#323);
#15=FACE_BOUND('',#56,.T.);
#16=FACE_BOUND('',#57,.T.);
#17=FACE_BOUND('',#58,.T.);
#18=FACE_BOUND('',#59,.T.);
#19=FACE_BOUND('',#60,.T.);
#20=FACE_BOUND('',#69,.T.);
#21=FACE_BOUND('',#71,.T.);
#22=FACE_BOUND('',#73,.T.);
#23=FACE_BOUND('',#75,.T.);
#24=FACE_BOUND('',#77,.T.);
#25=FACE_BOUND('',#81,.T.);
#26=FACE_BOUND('',#82,.T.);
#27=FACE_BOUND('',#83,.T.);
#28=FACE_BOUND('',#84,.T.);
#29=FACE_BOUND('',#85,.T.);
#30=PLANE('',#328);
#31=PLANE('',#338);
#32=PLANE('',#343);
#33=PLANE('',#346);
#34=PLANE('',#359);
#35=PLANE('',#360);
#36=PLANE('',#361);
#37=FACE_OUTER_BOUND('',#54,.T.);
#38=FACE_OUTER_BOUND('',#55,.T.);
#39=FACE_OUTER_BOUND('',#61,.T.);
#40=FACE_OUTER_BOUND('',#62,.T.);
#41=FACE_OUTER_BOUND('',#63,.T.);
#42=FACE_OUTER_BOUND('',#64,.T.);
#43=FACE_OUTER_BOUND('',#65,.T.);
#44=FACE_OUTER_BOUND('',#66,.T.);
#45=FACE_OUTER_BOUND('',#67,.T.);
#46=FACE_OUTER_BOUND('',#68,.T.);
#47=FACE_OUTER_BOUND('',#70,.T.);
#48=FACE_OUTER_BOUND('',#72,.T.);
#49=FACE_OUTER_BOUND('',#74,.T.);
#50=FACE_OUTER_BOUND('',#76,.T.);
#51=FACE_OUTER_BOUND('',#78,.T.);
#52=FACE_OUTER_BOUND('',#79,.T.);
#53=FACE_OUTER_BOUND('',#80,.T.);
#54=EDGE_LOOP('',(#216,#217,#218,#219));
#55=EDGE_LOOP('',(#220,#221,#222,#223,#224,#225,#226,#227,#228,#229));
#56=EDGE_LOOP('',(#230));
#57=EDGE_LOOP('',(#231));
#58=EDGE_LOOP('',(#232));
#59=EDGE_LOOP('',(#233));
#60=EDGE_LOOP('',(#234));
#61=EDGE_LOOP('',(#235,#236,#237,#238));
#62=EDGE_LOOP('',(#239,#240,#241,#242));
#63=EDGE_LOOP('',(#243,#244,#245,#246));
#64=EDGE_LOOP('',(#247,#248,#249,#250));
#65=EDGE_LOOP('',(#251,#252,#253,#254));
#66=EDGE_LOOP('',(#255,#256,#257,#258));
#67=EDGE_LOOP('',(#259,#260,#261,#262));
#68=EDGE_LOOP('',(#263));
#69=EDGE_LOOP('',(#264));
#70=EDGE_LOOP('',(#265));
#71=EDGE_LOOP('',(#266));
#72=EDGE_LOOP('',(#267));
#73=EDGE_LOOP('',(#268));
#74=EDGE_LOOP('',(#269));
#75=EDGE_LOOP('',(#270));
#76=EDGE_LOOP('',(#271));
#77=EDGE_LOOP('',(#272));
#78=EDGE_LOOP('',(#273,#274,#275,#276));
#79=EDGE_LOOP('',(#277,#278,#279,#280));
#80=EDGE_LOOP('',(#281,#282,#283,#284,#285,#286,#287,#288,#289,#290));
#81=EDGE_LOOP('',(#291));
#82=EDGE_LOOP('',(#292));
#83=EDGE_LOOP('',(#293));
#84=EDGE_LOOP('',(#294));
#85=EDGE_LOOP('',(#295));
#86=LINE('',#464,#106);
#87=LINE('',#467,#107);
#88=LINE('',#470,#108);
#89=LINE('',#474,#109);
#90=LINE('',#478,#110);
#91=LINE('',#482,#111);
#92=LINE('',#485,#112);
#93=LINE('',#498,#113);
#94=LINE('',#499,#114);
#95=LINE('',#503,#115);
#96=LINE('',#506,#116);
#97=LINE('',#509,#117);
#98=LINE('',#512,#118);
#99=LINE('',#513,#119);
#100=LINE('',#516,#120);
#101=LINE('',#520,#121);
#102=LINE('',#521,#122);
#103=LINE('',#524,#123);
#104=LINE('',#542,#124);
#105=LINE('',#544,#125);
#106=VECTOR('',#368,3.);
#107=VECTOR('',#371,3.);
#108=VECTOR('',#374,84.0243866176395);
#109=VECTOR('',#377,26.5857864376269);
#110=VECTOR('',#380,86.);
#111=VECTOR('',#383,86.);
#112=VECTOR('',#386,26.5857864376269);
#113=VECTOR('',#399,84.0243866176395);
#114=VECTOR('',#400,3.);
#115=VECTOR('',#405,3.);
#116=VECTOR('',#408,3.);
#117=VECTOR('',#411,3.);
#118=VECTOR('',#414,3.);
#119=VECTOR('',#415,86.);
#120=VECTOR('',#418,3.);
#121=VECTOR('',#423,3.);
#122=VECTOR('',#424,86.);
#123=VECTOR('',#427,3.);
#124=VECTOR('',#452,26.5857864376269);
#125=VECTOR('',#455,26.5857864376269);
#126=CIRCLE('',#326,1.);
#127=CIRCLE('',#327,1.);
#128=CIRCLE('',#329,1.);
#129=CIRCLE('',#330,1.);
#130=CIRCLE('',#331,1.);
#131=CIRCLE('',#332,1.);
#132=CIRCLE('',#333,3.25);
#133=CIRCLE('',#334,3.25);
#134=CIRCLE('',#335,3.25);
#135=CIRCLE('',#336,3.25);
#136=CIRCLE('',#337,3.25);
#137=CIRCLE('',#340,1.);
#138=CIRCLE('',#342,1.);
#139=CIRCLE('',#345,1.);
#140=CIRCLE('',#348,1.);
#141=CIRCLE('',#350,3.25);
#142=CIRCLE('',#352,3.25);
#143=CIRCLE('',#354,3.25);
#144=CIRCLE('',#356,3.25);
#145=CIRCLE('',#358,3.25);
#146=VERTEX_POINT('',#460);
#147=VERTEX_POINT('',#461);
#148=VERTEX_POINT('',#463);
#149=VERTEX_POINT('',#465);
#150=VERTEX_POINT('',#469);
#151=VERTEX_POINT('',#471);
#152=VERTEX_POINT('',#473);
#153=VERTEX_POINT('',#475);
#154=VERTEX_POINT('',#477);
#155=VERTEX_POINT('',#479);
#156=VERTEX_POINT('',#481);
#157=VERTEX_POINT('',#483);
#158=VERTEX_POINT('',#486);
#159=VERTEX_POINT('',#488);
#160=VERTEX_POINT('',#490);
#161=VERTEX_POINT('',#492);
#162=VERTEX_POINT('',#494);
#163=VERTEX_POINT('',#497);
#164=VERTEX_POINT('',#501);
#165=VERTEX_POINT('',#505);
#166=VERTEX_POINT('',#507);
#167=VERTEX_POINT('',#511);
#168=VERTEX_POINT('',#515);
#169=VERTEX_POINT('',#519);
#170=VERTEX_POINT('',#523);
#171=VERTEX_POINT('',#527);
#172=VERTEX_POINT('',#530);
#173=VERTEX_POINT('',#533);
#174=VERTEX_POINT('',#536);
#175=VERTEX_POINT('',#539);
#176=EDGE_CURVE('',#146,#147,#126,.T.);
#177=EDGE_CURVE('',#147,#148,#86,.T.);
#178=EDGE_CURVE('',#148,#149,#127,.T.);
#179=EDGE_CURVE('',#149,#146,#87,.T.);
#180=EDGE_CURVE('',#146,#150,#88,.T.);
#181=EDGE_CURVE('',#151,#150,#128,.T.);
#182=EDGE_CURVE('',#151,#152,#89,.T.);
#183=EDGE_CURVE('',#153,#152,#129,.T.);
#184=EDGE_CURVE('',#153,#154,#90,.T.);
#185=EDGE_CURVE('',#155,#154,#130,.T.);
#186=EDGE_CURVE('',#155,#156,#91,.T.);
#187=EDGE_CURVE('',#157,#156,#131,.T.);
#188=EDGE_CURVE('',#157,#147,#92,.T.);
#189=EDGE_CURVE('',#158,#158,#132,.T.);
#190=EDGE_CURVE('',#159,#159,#133,.T.);
#191=EDGE_CURVE('',#160,#160,#134,.T.);
#192=EDGE_CURVE('',#161,#161,#135,.T.);
#193=EDGE_CURVE('',#162,#162,#136,.T.);
#194=EDGE_CURVE('',#163,#149,#93,.T.);
#195=EDGE_CURVE('',#150,#163,#94,.T.);
#196=EDGE_CURVE('',#163,#164,#137,.T.);
#197=EDGE_CURVE('',#164,#151,#95,.T.);
#198=EDGE_CURVE('',#156,#165,#96,.T.);
#199=EDGE_CURVE('',#165,#166,#138,.T.);
#200=EDGE_CURVE('',#166,#157,#97,.T.);
#201=EDGE_CURVE('',#167,#155,#98,.T.);
#202=EDGE_CURVE('',#165,#167,#99,.T.);
#203=EDGE_CURVE('',#154,#168,#100,.T.);
#204=EDGE_CURVE('',#168,#167,#139,.T.);
#205=EDGE_CURVE('',#169,#153,#101,.T.);
#206=EDGE_CURVE('',#168,#169,#102,.T.);
#207=EDGE_CURVE('',#152,#170,#103,.T.);
#208=EDGE_CURVE('',#170,#169,#140,.T.);
#209=EDGE_CURVE('',#171,#171,#141,.T.);
#210=EDGE_CURVE('',#172,#172,#142,.T.);
#211=EDGE_CURVE('',#173,#173,#143,.T.);
#212=EDGE_CURVE('',#174,#174,#144,.T.);
#213=EDGE_CURVE('',#175,#175,#145,.T.);
#214=EDGE_CURVE('',#170,#164,#104,.T.);
#215=EDGE_CURVE('',#148,#166,#105,.T.);
#216=ORIENTED_EDGE('',*,*,#176,.T.);
#217=ORIENTED_EDGE('',*,*,#177,.T.);
#218=ORIENTED_EDGE('',*,*,#178,.T.);
#219=ORIENTED_EDGE('',*,*,#179,.T.);
#220=ORIENTED_EDGE('',*,*,#176,.F.);
#221=ORIENTED_EDGE('',*,*,#180,.T.);
#222=ORIENTED_EDGE('',*,*,#181,.F.);
#223=ORIENTED_EDGE('',*,*,#182,.T.);
#224=ORIENTED_EDGE('',*,*,#183,.F.);
#225=ORIENTED_EDGE('',*,*,#184,.T.);
#226=ORIENTED_EDGE('',*,*,#185,.F.);
#227=ORIENTED_EDGE('',*,*,#186,.T.);
#228=ORIENTED_EDGE('',*,*,#187,.F.);
#229=ORIENTED_EDGE('',*,*,#188,.T.);
#230=ORIENTED_EDGE('',*,*,#189,.T.);
#231=ORIENTED_EDGE('',*,*,#190,.T.);
#232=ORIENTED_EDGE('',*,*,#191,.T.);
#233=ORIENTED_EDGE('',*,*,#192,.T.);
#234=ORIENTED_EDGE('',*,*,#193,.T.);
#235=ORIENTED_EDGE('',*,*,#179,.F.);
#236=ORIENTED_EDGE('',*,*,#194,.F.);
#237=ORIENTED_EDGE('',*,*,#195,.F.);
#238=ORIENTED_EDGE('',*,*,#180,.F.);
#239=ORIENTED_EDGE('',*,*,#181,.T.);
#240=ORIENTED_EDGE('',*,*,#195,.T.);
#241=ORIENTED_EDGE('',*,*,#196,.T.);
#242=ORIENTED_EDGE('',*,*,#197,.T.);
#243=ORIENTED_EDGE('',*,*,#187,.T.);
#244=ORIENTED_EDGE('',*,*,#198,.T.);
#245=ORIENTED_EDGE('',*,*,#199,.T.);
#246=ORIENTED_EDGE('',*,*,#200,.T.);
#247=ORIENTED_EDGE('',*,*,#198,.F.);
#248=ORIENTED_EDGE('',*,*,#186,.F.);
#249=ORIENTED_EDGE('',*,*,#201,.F.);
#250=ORIENTED_EDGE('',*,*,#202,.F.);
#251=ORIENTED_EDGE('',*,*,#185,.T.);
#252=ORIENTED_EDGE('',*,*,#203,.T.);
#253=ORIENTED_EDGE('',*,*,#204,.T.);
#254=ORIENTED_EDGE('',*,*,#201,.T.);
#255=ORIENTED_EDGE('',*,*,#203,.F.);
#256=ORIENTED_EDGE('',*,*,#184,.F.);
#257=ORIENTED_EDGE('',*,*,#205,.F.);
#258=ORIENTED_EDGE('',*,*,#206,.F.);
#259=ORIENTED_EDGE('',*,*,#183,.T.);
#260=ORIENTED_EDGE('',*,*,#207,.T.);
#261=ORIENTED_EDGE('',*,*,#208,.T.);
#262=ORIENTED_EDGE('',*,*,#205,.T.);
#263=ORIENTED_EDGE('',*,*,#193,.F.);
#264=ORIENTED_EDGE('',*,*,#209,.F.);
#265=ORIENTED_EDGE('',*,*,#192,.F.);
#266=ORIENTED_EDGE('',*,*,#210,.F.);
#267=ORIENTED_EDGE('',*,*,#191,.F.);
#268=ORIENTED_EDGE('',*,*,#211,.F.);
#269=ORIENTED_EDGE('',*,*,#190,.F.);
#270=ORIENTED_EDGE('',*,*,#212,.F.);
#271=ORIENTED_EDGE('',*,*,#189,.F.);
#272=ORIENTED_EDGE('',*,*,#213,.F.);
#273=ORIENTED_EDGE('',*,*,#197,.F.);
#274=ORIENTED_EDGE('',*,*,#214,.F.);
#275=ORIENTED_EDGE('',*,*,#207,.F.);
#276=ORIENTED_EDGE('',*,*,#182,.F.);
#277=ORIENTED_EDGE('',*,*,#177,.F.);
#278=ORIENTED_EDGE('',*,*,#188,.F.);
#279=ORIENTED_EDGE('',*,*,#200,.F.);
#280=ORIENTED_EDGE('',*,*,#215,.F.);
#281=ORIENTED_EDGE('',*,*,#178,.F.);
#282=ORIENTED_EDGE('',*,*,#215,.T.);
#283=ORIENTED_EDGE('',*,*,#199,.F.);
#284=ORIENTED_EDGE('',*,*,#202,.T.);
#285=ORIENTED_EDGE('',*,*,#204,.F.);
#286=ORIENTED_EDGE('',*,*,#206,.T.);
#287=ORIENTED_EDGE('',*,*,#208,.F.);
#288=ORIENTED_EDGE('',*,*,#214,.T.);
#289=ORIENTED_EDGE('',*,*,#196,.F.);
#290=ORIENTED_EDGE('',*,*,#194,.T.);
#291=ORIENTED_EDGE('',*,*,#209,.T.);
#292=ORIENTED_EDGE('',*,*,#210,.T.);
#293=ORIENTED_EDGE('',*,*,#211,.T.);
#294=ORIENTED_EDGE('',*,*,#212,.T.);
#295=ORIENTED_EDGE('',*,*,#213,.T.);
#296=CYLINDRICAL_SURFACE('',#325,1.);
#297=CYLINDRICAL_SURFACE('',#339,1.);
#298=CYLINDRICAL_SURFACE('',#341,1.);
#299=CYLINDRICAL_SURFACE('',#344,1.);
#300=CYLINDRICAL_SURFACE('',#347,1.);
#301=CYLINDRICAL_SURFACE('',#349,3.25);
#302=CYLINDRICAL_SURFACE('',#351,3.25);
#303=CYLINDRICAL_SURFACE('',#353,3.25);
#304=CYLINDRICAL_SURFACE('',#355,3.25);
#305=CYLINDRICAL_SURFACE('',#357,3.25);
#306=ADVANCED_FACE('',(#37),#296,.T.);
#307=ADVANCED_FACE('',(#38,#15,#16,#17,#18,#19),#30,.T.);
#308=ADVANCED_FACE('',(#39),#31,.T.);
#309=ADVANCED_FACE('',(#40),#297,.T.);
#310=ADVANCED_FACE('',(#41),#298,.T.);
#311=ADVANCED_FACE('',(#42),#32,.T.);
#312=ADVANCED_FACE('',(#43),#299,.T.);
#313=ADVANCED_FACE('',(#44),#33,.T.);
#314=ADVANCED_FACE('',(#45),#300,.T.);
#315=ADVANCED_FACE('',(#46,#20),#301,.F.);
#316=ADVANCED_FACE('',(#47,#21),#302,.F.);
#317=ADVANCED_FACE('',(#48,#22),#303,.F.);
#318=ADVANCED_FACE('',(#49,#23),#304,.F.);
#319=ADVANCED_FACE('',(#50,#24),#305,.F.);
#320=ADVANCED_FACE('',(#51),#34,.T.);
#321=ADVANCED_FACE('',(#52),#35,.T.);
#322=ADVANCED_FACE('',(#53,#25,#26,#27,#28,#29),#36,.F.);
#323=CLOSED_SHELL('',(#306,#307,#308,#309,#310,#311,#312,#313,#314,#315,
#316,#317,#318,#319,#320,#321,#322));
#324=AXIS2_PLACEMENT_3D('placement',#458,#362,#363);
#325=AXIS2_PLACEMENT_3D('',#459,#364,#365);
#326=AXIS2_PLACEMENT_3D('',#462,#366,#367);
#327=AXIS2_PLACEMENT_3D('',#466,#369,#370);
#328=AXIS2_PLACEMENT_3D('',#468,#372,#373);
#329=AXIS2_PLACEMENT_3D('',#472,#375,#376);
#330=AXIS2_PLACEMENT_3D('',#476,#378,#379);
#331=AXIS2_PLACEMENT_3D('',#480,#381,#382);
#332=AXIS2_PLACEMENT_3D('',#484,#384,#385);
#333=AXIS2_PLACEMENT_3D('',#487,#387,#388);
#334=AXIS2_PLACEMENT_3D('',#489,#389,#390);
#335=AXIS2_PLACEMENT_3D('',#491,#391,#392);
#336=AXIS2_PLACEMENT_3D('',#493,#393,#394);
#337=AXIS2_PLACEMENT_3D('',#495,#395,#396);
#338=AXIS2_PLACEMENT_3D('',#496,#397,#398);
#339=AXIS2_PLACEMENT_3D('',#500,#401,#402);
#340=AXIS2_PLACEMENT_3D('',#502,#403,#404);
#341=AXIS2_PLACEMENT_3D('',#504,#406,#407);
#342=AXIS2_PLACEMENT_3D('',#508,#409,#410);
#343=AXIS2_PLACEMENT_3D('',#510,#412,#413);
#344=AXIS2_PLACEMENT_3D('',#514,#416,#417);
#345=AXIS2_PLACEMENT_3D('',#517,#419,#420);
#346=AXIS2_PLACEMENT_3D('',#518,#421,#422);
#347=AXIS2_PLACEMENT_3D('',#522,#425,#426);
#348=AXIS2_PLACEMENT_3D('',#525,#428,#429);
#349=AXIS2_PLACEMENT_3D('',#526,#430,#431);
#350=AXIS2_PLACEMENT_3D('',#528,#432,#433);
#351=AXIS2_PLACEMENT_3D('',#529,#434,#435);
#352=AXIS2_PLACEMENT_3D('',#531,#436,#437);
#353=AXIS2_PLACEMENT_3D('',#532,#438,#439);
#354=AXIS2_PLACEMENT_3D('',#534,#440,#441);
#355=AXIS2_PLACEMENT_3D('',#535,#442,#443);
#356=AXIS2_PLACEMENT_3D('',#537,#444,#445);
#357=AXIS2_PLACEMENT_3D('',#538,#446,#447);
#358=AXIS2_PLACEMENT_3D('',#540,#448,#449);
#359=AXIS2_PLACEMENT_3D('',#541,#450,#451);
#360=AXIS2_PLACEMENT_3D('',#543,#453,#454);
#361=AXIS2_PLACEMENT_3D('',#545,#456,#457);
#362=DIRECTION('axis',(0.,0.,1.));
#363=DIRECTION('refdir',(1.,0.,0.));
#364=DIRECTION('center_axis',(0.,0.,1.));
#365=DIRECTION('ref_axis',(0.923879532511285,0.382683432365094,0.));
#366=DIRECTION('center_axis',(0.,0.,-1.));
#367=DIRECTION('ref_axis',(0.923879532511285,0.382683432365094,0.));
#368=DIRECTION('',(0.,0.,-1.));
#369=DIRECTION('center_axis',(0.,0.,1.));
#370=DIRECTION('ref_axis',(0.923879532511285,0.382683432365094,0.));
#371=DIRECTION('',(0.,0.,1.));
#372=DIRECTION('center_axis',(0.,0.,1.));
#373=DIRECTION('ref_axis',(1.,0.,0.));
#374=DIRECTION('',(-0.707106781186548,0.707106781186548,0.));
#375=DIRECTION('center_axis',(0.,0.,-1.));
#376=DIRECTION('ref_axis',(0.382683432365087,0.923879532511288,0.));
#377=DIRECTION('',(-1.,0.,0.));
#378=DIRECTION('center_axis',(0.,0.,-1.));
#379=DIRECTION('ref_axis',(-0.707106781186543,0.707106781186552,0.));
#380=DIRECTION('',(0.,-1.,0.));
#381=DIRECTION('center_axis',(0.,0.,-1.));
#382=DIRECTION('ref_axis',(-0.707106781186549,-0.707106781186546,0.));
#383=DIRECTION('',(1.,0.,0.));
#384=DIRECTION('center_axis',(0.,0.,-1.));
#385=DIRECTION('ref_axis',(0.70710678118654,-0.707106781186555,0.));
#386=DIRECTION('',(0.,1.,0.));
#387=DIRECTION('center_axis',(0.,0.,-1.));
#388=DIRECTION('ref_axis',(-1.,0.,0.));
#389=DIRECTION('center_axis',(0.,0.,-1.));
#390=DIRECTION('ref_axis',(-1.,0.,0.));
#391=DIRECTION('center_axis',(0.,0.,-1.));
#392=DIRECTION('ref_axis',(-1.,0.,0.));
#393=DIRECTION('center_axis',(0.,0.,-1.));
#394=DIRECTION('ref_axis',(-1.,0.,0.));
#395=DIRECTION('center_axis',(0.,0.,-1.));
#396=DIRECTION('ref_axis',(-1.,0.,0.));
#397=DIRECTION('center_axis',(0.707106781186548,0.707106781186548,0.));
#398=DIRECTION('ref_axis',(-0.707106781186548,0.707106781186548,0.));
#399=DIRECTION('',(0.707106781186548,-0.707106781186548,0.));
#400=DIRECTION('',(0.,0.,-1.));
#401=DIRECTION('center_axis',(0.,0.,1.));
#402=DIRECTION('ref_axis',(0.382683432365087,0.923879532511288,0.));
#403=DIRECTION('center_axis',(0.,0.,1.));
#404=DIRECTION('ref_axis',(0.382683432365087,0.923879532511288,0.));
#405=DIRECTION('',(0.,0.,1.));
#406=DIRECTION('center_axis',(0.,0.,1.));
#407=DIRECTION('ref_axis',(0.70710678118654,-0.707106781186555,0.));
#408=DIRECTION('',(0.,0.,-1.));
#409=DIRECTION('center_axis',(0.,0.,1.));
#410=DIRECTION('ref_axis',(0.70710678118654,-0.707106781186555,0.));
#411=DIRECTION('',(0.,0.,1.));
#412=DIRECTION('center_axis',(0.,-1.,0.));
#413=DIRECTION('ref_axis',(1.,0.,0.));
#414=DIRECTION('',(0.,0.,1.));
#415=DIRECTION('',(-1.,0.,0.));
#416=DIRECTION('center_axis',(0.,0.,1.));
#417=DIRECTION('ref_axis',(-0.707106781186549,-0.707106781186546,0.));
#418=DIRECTION('',(0.,0.,-1.));
#419=DIRECTION('center_axis',(0.,0.,1.));
#420=DIRECTION('ref_axis',(-0.707106781186549,-0.707106781186546,0.));
#421=DIRECTION('center_axis',(-1.,0.,0.));
#422=DIRECTION('ref_axis',(0.,-1.,0.));
#423=DIRECTION('',(0.,0.,1.));
#424=DIRECTION('',(0.,1.,0.));
#425=DIRECTION('center_axis',(0.,0.,1.));
#426=DIRECTION('ref_axis',(-0.707106781186543,0.707106781186552,0.));
#427=DIRECTION('',(0.,0.,-1.));
#428=DIRECTION('center_axis',(0.,0.,1.));
#429=DIRECTION('ref_axis',(-0.707106781186543,0.707106781186552,0.));
#430=DIRECTION('center_axis',(0.,0.,1.));
#431=DIRECTION('ref_axis',(-1.,0.,0.));
#432=DIRECTION('center_axis',(0.,0.,1.));
#433=DIRECTION('ref_axis',(-1.,0.,0.));
#434=DIRECTION('center_axis',(0.,0.,1.));
#435=DIRECTION('ref_axis',(-1.,0.,0.));
#436=DIRECTION('center_axis',(0.,0.,1.));
#437=DIRECTION('ref_axis',(-1.,0.,0.));
#438=DIRECTION('center_axis',(0.,0.,1.));
#439=DIRECTION('ref_axis',(-1.,0.,0.));
#440=DIRECTION('center_axis',(0.,0.,1.));
#441=DIRECTION('ref_axis',(-1.,0.,0.));
#442=DIRECTION('center_axis',(0.,0.,1.));
#443=DIRECTION('ref_axis',(-1.,0.,0.));
#444=DIRECTION('center_axis',(0.,0.,1.));
#445=DIRECTION('ref_axis',(-1.,0.,0.));
#446=DIRECTION('center_axis',(0.,0.,1.));
#447=DIRECTION('ref_axis',(-1.,0.,0.));
#448=DIRECTION('center_axis',(0.,0.,1.));
#449=DIRECTION('ref_axis',(-1.,0.,0.));
#450=DIRECTION('center_axis',(0.,1.,0.));
#451=DIRECTION('ref_axis',(-1.,0.,0.));
#452=DIRECTION('',(1.,0.,0.));
#453=DIRECTION('center_axis',(1.,0.,0.));
#454=DIRECTION('ref_axis',(0.,1.,0.));
#455=DIRECTION('',(0.,-1.,0.));
#456=DIRECTION('center_axis',(0.,0.,1.));
#457=DIRECTION('ref_axis',(1.,0.,0.));
#458=CARTESIAN_POINT('',(0.,0.,0.));
#459=CARTESIAN_POINT('Origin',(87.,27.5857864376269,0.));
#460=CARTESIAN_POINT('',(87.7071067811866,28.2928932188134,3.));
#461=CARTESIAN_POINT('',(88.,27.5857864376269,3.));
#462=CARTESIAN_POINT('Origin',(87.,27.5857864376269,3.));
#463=CARTESIAN_POINT('',(88.,27.5857864376269,0.));
#464=CARTESIAN_POINT('',(88.,27.5857864376269,0.));
#465=CARTESIAN_POINT('',(87.7071067811866,28.2928932188134,0.));
#466=CARTESIAN_POINT('Origin',(87.,27.5857864376269,0.));
#467=CARTESIAN_POINT('',(87.7071067811866,28.2928932188134,0.));
#468=CARTESIAN_POINT('Origin',(36.7661661560306,36.7661661560306,3.));
#469=CARTESIAN_POINT('',(28.2928932188134,87.7071067811866,3.));
#470=CARTESIAN_POINT('',(28.,88.,3.));
#471=CARTESIAN_POINT('',(27.5857864376269,88.,3.));
#472=CARTESIAN_POINT('Origin',(27.5857864376269,87.,3.));
#473=CARTESIAN_POINT('',(1.,88.,3.));
#474=CARTESIAN_POINT('',(0.,88.,3.));
#475=CARTESIAN_POINT('',(0.,87.,3.));
#476=CARTESIAN_POINT('Origin',(1.,87.,3.));
#477=CARTESIAN_POINT('',(0.,0.999999999999996,3.));
#478=CARTESIAN_POINT('',(0.,0.,3.));
#479=CARTESIAN_POINT('',(0.999999999999996,0.,3.));
#480=CARTESIAN_POINT('Origin',(1.,0.999999999999996,3.));
#481=CARTESIAN_POINT('',(87.,0.,3.));
#482=CARTESIAN_POINT('',(88.,0.,3.));
#483=CARTESIAN_POINT('',(88.,1.,3.));
#484=CARTESIAN_POINT('Origin',(87.,1.,3.));
#485=CARTESIAN_POINT('',(88.,28.,3.));
#486=CARTESIAN_POINT('',(17.25,74.,3.));
#487=CARTESIAN_POINT('Origin',(14.,74.,3.));
#488=CARTESIAN_POINT('',(17.25,14.,3.));
#489=CARTESIAN_POINT('Origin',(14.,14.,3.));
#490=CARTESIAN_POINT('',(17.25,44.,3.));
#491=CARTESIAN_POINT('Origin',(14.,44.,3.));
#492=CARTESIAN_POINT('',(47.25,14.,3.));
#493=CARTESIAN_POINT('Origin',(44.,14.,3.));
#494=CARTESIAN_POINT('',(77.25,14.,3.));
#495=CARTESIAN_POINT('Origin',(74.,14.,3.));
#496=CARTESIAN_POINT('Origin',(88.,28.,0.));
#497=CARTESIAN_POINT('',(28.2928932188134,87.7071067811866,0.));
#498=CARTESIAN_POINT('',(28.,88.,0.));
#499=CARTESIAN_POINT('',(28.2928932188134,87.7071067811866,0.));
#500=CARTESIAN_POINT('Origin',(27.5857864376269,87.,0.));
#501=CARTESIAN_POINT('',(27.5857864376269,88.,0.));
#502=CARTESIAN_POINT('Origin',(27.5857864376269,87.,0.));
#503=CARTESIAN_POINT('',(27.5857864376269,88.,0.));
#504=CARTESIAN_POINT('Origin',(87.,1.,0.));
#505=CARTESIAN_POINT('',(87.,0.,0.));
#506=CARTESIAN_POINT('',(87.,0.,0.));
#507=CARTESIAN_POINT('',(88.,1.,0.));
#508=CARTESIAN_POINT('Origin',(87.,1.,0.));
#509=CARTESIAN_POINT('',(88.,1.,0.));
#510=CARTESIAN_POINT('Origin',(0.,0.,0.));
#511=CARTESIAN_POINT('',(0.999999999999996,0.,0.));
#512=CARTESIAN_POINT('',(1.,0.,0.));
#513=CARTESIAN_POINT('',(88.,0.,0.));
#514=CARTESIAN_POINT('Origin',(1.,0.999999999999996,0.));
#515=CARTESIAN_POINT('',(0.,0.999999999999996,0.));
#516=CARTESIAN_POINT('',(0.,0.999999999999996,0.));
#517=CARTESIAN_POINT('Origin',(1.,0.999999999999996,0.));
#518=CARTESIAN_POINT('Origin',(0.,88.,0.));
#519=CARTESIAN_POINT('',(0.,87.,0.));
#520=CARTESIAN_POINT('',(0.,87.,0.));
#521=CARTESIAN_POINT('',(0.,0.,0.));
#522=CARTESIAN_POINT('Origin',(1.,87.,0.));
#523=CARTESIAN_POINT('',(1.,88.,0.));
#524=CARTESIAN_POINT('',(1.,88.,0.));
#525=CARTESIAN_POINT('Origin',(1.,87.,0.));
#526=CARTESIAN_POINT('Origin',(74.,14.,0.));
#527=CARTESIAN_POINT('',(77.25,14.,0.));
#528=CARTESIAN_POINT('Origin',(74.,14.,0.));
#529=CARTESIAN_POINT('Origin',(44.,14.,0.));
#530=CARTESIAN_POINT('',(47.25,14.,0.));
#531=CARTESIAN_POINT('Origin',(44.,14.,0.));
#532=CARTESIAN_POINT('Origin',(14.,44.,0.));
#533=CARTESIAN_POINT('',(17.25,44.,0.));
#534=CARTESIAN_POINT('Origin',(14.,44.,0.));
#535=CARTESIAN_POINT('Origin',(14.,14.,0.));
#536=CARTESIAN_POINT('',(17.25,14.,0.));
#537=CARTESIAN_POINT('Origin',(14.,14.,0.));
#538=CARTESIAN_POINT('Origin',(14.,74.,0.));
#539=CARTESIAN_POINT('',(17.25,74.,0.));
#540=CARTESIAN_POINT('Origin',(14.,74.,0.));
#541=CARTESIAN_POINT('Origin',(28.,88.,0.));
#542=CARTESIAN_POINT('',(0.,88.,0.));
#543=CARTESIAN_POINT('Origin',(88.,0.,0.));
#544=CARTESIAN_POINT('',(88.,28.,0.));
#545=CARTESIAN_POINT('Origin',(36.7661661560306,36.7661661560306,0.));
#546=UNCERTAINTY_MEASURE_WITH_UNIT(LENGTH_MEASURE(0.01),#550,
'DISTANCE_ACCURACY_VALUE',
'Maximum model space distance between geometric entities at asserted c
onnectivities');
#547=UNCERTAINTY_MEASURE_WITH_UNIT(LENGTH_MEASURE(1.E-6),#550,
'DISTANCE_ACCURACY_VALUE',
'Maximum model space distance between geometric entities at asserted c
onnectivities');
#548=(
GEOMETRIC_REPRESENTATION_CONTEXT(3)
GLOBAL_UNCERTAINTY_ASSIGNED_CONTEXT((#546))
GLOBAL_UNIT_ASSIGNED_CONTEXT((#550,#553,#551))
REPRESENTATION_CONTEXT('','3D')
);
#549=(
GEOMETRIC_REPRESENTATION_CONTEXT(3)
GLOBAL_UNCERTAINTY_ASSIGNED_CONTEXT((#547))
GLOBAL_UNIT_ASSIGNED_CONTEXT((#550,#553,#551))
REPRESENTATION_CONTEXT('','3D')
);
#550=(
LENGTH_UNIT()
NAMED_UNIT(*)
SI_UNIT(.MILLI.,.METRE.)
);
#551=(
NAMED_UNIT(*)
SI_UNIT($,.STERADIAN.)
SOLID_ANGLE_UNIT()
);
#552=DIMENSIONAL_EXPONENTS(0.,0.,0.,0.,0.,0.,0.);
#553=(
CONVERSION_BASED_UNIT('degree',#555)
NAMED_UNIT(#552)
PLANE_ANGLE_UNIT()
);
#554=(
NAMED_UNIT(*)
PLANE_ANGLE_UNIT()
SI_UNIT($,.RADIAN.)
);
#555=PLANE_ANGLE_MEASURE_WITH_UNIT(PLANE_ANGLE_MEASURE(0.01745329252),#554);
#556=SHAPE_DEFINITION_REPRESENTATION(#557,#558);
#557=PRODUCT_DEFINITION_SHAPE('',$,#560);
#558=SHAPE_REPRESENTATION('',(#324),#548);
#559=PRODUCT_DEFINITION_CONTEXT('part definition',#564,'design');
#560=PRODUCT_DEFINITION('L-CONN 1TO1 [88 88 3] 30 H5 D6-5',
'L-CONN 1TO1 [88 88 3] 30 H5 D6-5',#561,#559);
#561=PRODUCT_DEFINITION_FORMATION('',$,#566);
#562=PRODUCT_RELATED_PRODUCT_CATEGORY(
'L-CONN 1TO1 [88 88 3] 30 H5 D6-5','L-CONN 1TO1 [88 88 3] 30 H5 D6-5',(#566));
#563=APPLICATION_PROTOCOL_DEFINITION('international standard',
'automotive_design',2009,#564);
#564=APPLICATION_CONTEXT(
'Core Data for Automotive Mechanical Design Process');
#565=PRODUCT_CONTEXT('part definition',#564,'mechanical');
#566=PRODUCT('L-CONN 1TO1 [88 88 3] 30 H5 D6-5',
'L-CONN 1TO1 [88 88 3] 30 H5 D6-5',$,(#565));
#567=PRESENTATION_STYLE_ASSIGNMENT((#568));
#568=SURFACE_STYLE_USAGE(.BOTH.,#569);
#569=SURFACE_SIDE_STYLE('',(#570));
#570=SURFACE_STYLE_FILL_AREA(#571);
#571=FILL_AREA_STYLE('',(#572));
#572=FILL_AREA_STYLE_COLOUR('',#573);
#573=COLOUR_RGB('',0.749019607843137,0.749019607843137,0.749019607843137);
ENDSEC;
END-ISO-10303-21;
